ISO-10303-21;
HEADER;
FILE_DESCRIPTION(('STEP AP214'),'1');
FILE_NAME('C:/TPO v2/SharedFS/Outgoing/hpja90.stp','2015-08-13T12:20:21',('TraceParts'),('TraceParts S.A.'),'Spatial InterOp 3D',' ',' ');
FILE_SCHEMA(('automotive_design'));
ENDSEC;
DATA;
#1=PRODUCT_DEFINITION_CONTEXT('',#9,'design');
#2=APPLICATION_PROTOCOL_DEFINITION('INTERNATIONAL STANDARD','automotive_design',1994,#9);
#3=PRODUCT_CATEGORY_RELATIONSHIP('NONE','NONE',#10,#11);
#4=SHAPE_DEFINITION_REPRESENTATION(#12,#13);
#5= (GEOMETRIC_REPRESENTATION_CONTEXT(3)GLOBAL_UNCERTAINTY_ASSIGNED_CONTEXT((#16))GLOBAL_UNIT_ASSIGNED_CONTEXT((#18,#19,#20))REPRESENTATION_CONTEXT('NONE','WORKSPACE'));
#9=APPLICATION_CONTEXT(' ');
#10=PRODUCT_CATEGORY('part','NONE');
#11=PRODUCT_RELATED_PRODUCT_CATEGORY('detail',' ',(#22));
#12=PRODUCT_DEFINITION_SHAPE('NONE','NONE',#23);
#13=ADVANCED_BREP_SHAPE_REPRESENTATION('1',(#24,#25),#5);
#16=UNCERTAINTY_MEASURE_WITH_UNIT(LENGTH_MEASURE(1.0E-006),#18,'','');
#18= (CONVERSION_BASED_UNIT('MILLIMETRE',#28)LENGTH_UNIT()NAMED_UNIT(#31));
#19= (NAMED_UNIT(#33)PLANE_ANGLE_UNIT()SI_UNIT($,.RADIAN.));
#20= (NAMED_UNIT(#33)SOLID_ANGLE_UNIT()SI_UNIT($,.STERADIAN.));
#22=PRODUCT('1','1','PART-1-DESC',(#39));
#23=PRODUCT_DEFINITION('NONE','NONE',#40,#1);
#24=MANIFOLD_SOLID_BREP('1',#41);
#25=AXIS2_PLACEMENT_3D('',#42,#43,#44);
#28=LENGTH_MEASURE_WITH_UNIT(LENGTH_MEASURE(1.0),#45);
#31=DIMENSIONAL_EXPONENTS(1.0,0.0,0.0,0.0,0.0,0.0,0.0);
#33=DIMENSIONAL_EXPONENTS(0.0,0.0,0.0,0.0,0.0,0.0,0.0);
#39=PRODUCT_CONTEXT('',#9,'mechanical');
#40=PRODUCT_DEFINITION_FORMATION_WITH_SPECIFIED_SOURCE(' ','NONE',#22,.NOT_KNOWN.);
#41=CLOSED_SHELL('',(#46,#47,#48,#49,#50,#51,#52,#53,#54,#55,#56,#57,#58,#59,#60,#61));
#42=CARTESIAN_POINT('',(0.0,0.0,0.0));
#43=DIRECTION('',(0.0,0.0,1.0));
#44=DIRECTION('',(1.0,0.0,0.0));
#45= (NAMED_UNIT(#31)LENGTH_UNIT()SI_UNIT(.MILLI.,.METRE.));
#46=ADVANCED_FACE('',(#63),#64,.T.);
#47=ADVANCED_FACE('',(#65),#66,.T.);
#48=ADVANCED_FACE('',(#67),#68,.T.);
#49=ADVANCED_FACE('',(#69),#70,.T.);
#50=ADVANCED_FACE('',(#71),#72,.T.);
#51=ADVANCED_FACE('',(#73),#74,.F.);
#52=ADVANCED_FACE('',(#75),#76,.F.);
#53=ADVANCED_FACE('',(#77,#78),#79,.T.);
#54=ADVANCED_FACE('',(#80),#81,.T.);
#55=ADVANCED_FACE('',(#82,#83),#84,.T.);
#56=ADVANCED_FACE('',(#85),#86,.T.);
#57=ADVANCED_FACE('',(#87),#88,.T.);
#58=ADVANCED_FACE('',(#89),#90,.T.);
#59=ADVANCED_FACE('',(#91,#92),#93,.T.);
#60=ADVANCED_FACE('',(#94),#95,.T.);
#61=ADVANCED_FACE('',(#96,#97),#98,.T.);
#63=FACE_OUTER_BOUND('',#99,.T.);
#64=CYLINDRICAL_SURFACE('',#100,28.6);
#65=FACE_OUTER_BOUND('',#101,.T.);
#66=CYLINDRICAL_SURFACE('',#102,45.0);
#67=FACE_OUTER_BOUND('',#103,.T.);
#68=CONICAL_SURFACE('',#104,50.5,1.22173047639603);
#69=FACE_OUTER_BOUND('',#105,.T.);
#70=CYLINDRICAL_SURFACE('',#106,56.0);
#71=FACE_OUTER_BOUND('',#107,.T.);
#72=CYLINDRICAL_SURFACE('',#108,28.6);
#73=FACE_OUTER_BOUND('',#109,.T.);
#74=CYLINDRICAL_SURFACE('',#110,15.0);
#75=FACE_OUTER_BOUND('',#111,.T.);
#76=CYLINDRICAL_SURFACE('',#112,15.0);
#77=FACE_BOUND('',#113,.T.);
#78=FACE_OUTER_BOUND('',#114,.T.);
#79=PLANE('',#115);
#80=FACE_OUTER_BOUND('',#116,.T.);
#81=CYLINDRICAL_SURFACE('',#117,28.6);
#82=FACE_OUTER_BOUND('',#118,.T.);
#83=FACE_BOUND('',#119,.T.);
#84=PLANE('',#120);
#85=FACE_OUTER_BOUND('',#121,.T.);
#86=CYLINDRICAL_SURFACE('',#122,56.0);
#87=FACE_OUTER_BOUND('',#123,.T.);
#88=CONICAL_SURFACE('',#124,50.5,1.22173047639603);
#89=FACE_OUTER_BOUND('',#125,.T.);
#90=CYLINDRICAL_SURFACE('',#126,45.0);
#91=FACE_BOUND('',#127,.T.);
#92=FACE_OUTER_BOUND('',#128,.T.);
#93=PLANE('',#129);
#94=FACE_OUTER_BOUND('',#130,.T.);
#95=CYLINDRICAL_SURFACE('',#131,28.6);
#96=FACE_BOUND('',#132,.T.);
#97=FACE_OUTER_BOUND('',#133,.T.);
#98=PLANE('',#134);
#99=EDGE_LOOP('',(#135,#136,#137,#138));
#100=AXIS2_PLACEMENT_3D('',#139,#140,#141);
#101=EDGE_LOOP('',(#142,#143,#144,#145));
#102=AXIS2_PLACEMENT_3D('',#146,#147,#148);
#103=EDGE_LOOP('',(#149,#150,#151,#152));
#104=AXIS2_PLACEMENT_3D('',#153,#154,#155);
#105=EDGE_LOOP('',(#156,#157,#158,#159));
#106=AXIS2_PLACEMENT_3D('',#160,#161,#162);
#107=EDGE_LOOP('',(#163,#164,#165,#166));
#108=AXIS2_PLACEMENT_3D('',#167,#168,#169);
#109=EDGE_LOOP('',(#170,#171,#172,#173));
#110=AXIS2_PLACEMENT_3D('',#174,#175,#176);
#111=EDGE_LOOP('',(#177,#178,#179,#180));
#112=AXIS2_PLACEMENT_3D('',#181,#182,#183);
#113=EDGE_LOOP('',(#184,#185));
#114=EDGE_LOOP('',(#186,#187));
#115=AXIS2_PLACEMENT_3D('',#188,#189,#190);
#116=EDGE_LOOP('',(#191,#192,#193,#194));
#117=AXIS2_PLACEMENT_3D('',#195,#196,#197);
#118=EDGE_LOOP('',(#198,#199));
#119=EDGE_LOOP('',(#200,#201));
#120=AXIS2_PLACEMENT_3D('',#202,#203,#204);
#121=EDGE_LOOP('',(#205,#206,#207,#208));
#122=AXIS2_PLACEMENT_3D('',#209,#210,#211);
#123=EDGE_LOOP('',(#212,#213,#214,#215));
#124=AXIS2_PLACEMENT_3D('',#216,#217,#218);
#125=EDGE_LOOP('',(#219,#220,#221,#222));
#126=AXIS2_PLACEMENT_3D('',#223,#224,#225);
#127=EDGE_LOOP('',(#226,#227));
#128=EDGE_LOOP('',(#228,#229));
#129=AXIS2_PLACEMENT_3D('',#230,#231,#232);
#130=EDGE_LOOP('',(#233,#234,#235,#236));
#131=AXIS2_PLACEMENT_3D('',#237,#238,#239);
#132=EDGE_LOOP('',(#240,#241));
#133=EDGE_LOOP('',(#242,#243));
#134=AXIS2_PLACEMENT_3D('',#244,#245,#246);
#135=ORIENTED_EDGE('',*,*,#247,.F.);
#136=ORIENTED_EDGE('',*,*,#248,.T.);
#137=ORIENTED_EDGE('',*,*,#249,.F.);
#138=ORIENTED_EDGE('',*,*,#250,.F.);
#139=CARTESIAN_POINT('',(55.5,0.0,0.0));
#140=DIRECTION('',(1.0,0.0,0.0));
#141=DIRECTION('',(0.0,1.0,0.0));
#142=ORIENTED_EDGE('',*,*,#251,.F.);
#143=ORIENTED_EDGE('',*,*,#252,.T.);
#144=ORIENTED_EDGE('',*,*,#253,.F.);
#145=ORIENTED_EDGE('',*,*,#254,.F.);
#146=CARTESIAN_POINT('',(34.25,0.0,0.0));
#147=DIRECTION('',(1.0,0.0,0.0));
#148=DIRECTION('',(0.0,1.0,0.0));
#149=ORIENTED_EDGE('',*,*,#255,.F.);
#150=ORIENTED_EDGE('',*,*,#256,.T.);
#151=ORIENTED_EDGE('',*,*,#257,.F.);
#152=ORIENTED_EDGE('',*,*,#252,.F.);
#153=CARTESIAN_POINT('',(11.4981637115359,0.0,0.0));
#154=DIRECTION('',(-1.0,-0.0,-0.0));
#155=DIRECTION('',(0.0,1.0,0.0));
#156=ORIENTED_EDGE('',*,*,#258,.F.);
#157=ORIENTED_EDGE('',*,*,#259,.T.);
#158=ORIENTED_EDGE('',*,*,#260,.F.);
#159=ORIENTED_EDGE('',*,*,#256,.F.);
#160=CARTESIAN_POINT('',(5.24816371153588,0.0,0.0));
#161=DIRECTION('',(1.0,0.0,0.0));
#162=DIRECTION('',(0.0,1.0,0.0));
#163=ORIENTED_EDGE('',*,*,#261,.F.);
#164=ORIENTED_EDGE('',*,*,#262,.T.);
#165=ORIENTED_EDGE('',*,*,#263,.F.);
#166=ORIENTED_EDGE('',*,*,#264,.F.);
#167=CARTESIAN_POINT('',(0.5,0.0,0.0));
#168=DIRECTION('',(1.0,0.0,0.0));
#169=DIRECTION('',(0.0,1.0,0.0));
#170=ORIENTED_EDGE('',*,*,#265,.F.);
#171=ORIENTED_EDGE('',*,*,#266,.F.);
#172=ORIENTED_EDGE('',*,*,#267,.F.);
#173=ORIENTED_EDGE('',*,*,#268,.F.);
#174=CARTESIAN_POINT('',(28.0,0.0,0.0));
#175=DIRECTION('',(1.0,0.0,0.0));
#176=DIRECTION('',(0.0,0.0,-1.0));
#177=ORIENTED_EDGE('',*,*,#265,.T.);
#178=ORIENTED_EDGE('',*,*,#269,.F.);
#179=ORIENTED_EDGE('',*,*,#267,.T.);
#180=ORIENTED_EDGE('',*,*,#270,.F.);
#181=CARTESIAN_POINT('',(28.0,0.0,0.0));
#182=DIRECTION('',(1.0,0.0,0.0));
#183=DIRECTION('',(0.0,0.0,-1.0));
#184=ORIENTED_EDGE('',*,*,#269,.T.);
#185=ORIENTED_EDGE('',*,*,#268,.T.);
#186=ORIENTED_EDGE('',*,*,#262,.F.);
#187=ORIENTED_EDGE('',*,*,#271,.F.);
#188=CARTESIAN_POINT('',(8.75593542983E-016,14.3,0.0));
#189=DIRECTION('',(-1.0,6.12303176911189E-017,0.0));
#190=DIRECTION('',(-6.12303176911189E-017,-1.0,-0.0));
#191=ORIENTED_EDGE('',*,*,#261,.T.);
#192=ORIENTED_EDGE('',*,*,#272,.F.);
#193=ORIENTED_EDGE('',*,*,#263,.T.);
#194=ORIENTED_EDGE('',*,*,#271,.T.);
#195=CARTESIAN_POINT('',(0.5,0.0,0.0));
#196=DIRECTION('',(1.0,0.0,0.0));
#197=DIRECTION('',(0.0,1.0,0.0));
#198=ORIENTED_EDGE('',*,*,#259,.F.);
#199=ORIENTED_EDGE('',*,*,#273,.F.);
#200=ORIENTED_EDGE('',*,*,#264,.T.);
#201=ORIENTED_EDGE('',*,*,#272,.T.);
#202=CARTESIAN_POINT('',(1.0,42.3,0.0));
#203=DIRECTION('',(-1.0,-6.48305415839508E-017,0.0));
#204=DIRECTION('',(6.48305415839508E-017,-1.0,-0.0));
#205=ORIENTED_EDGE('',*,*,#258,.T.);
#206=ORIENTED_EDGE('',*,*,#274,.F.);
#207=ORIENTED_EDGE('',*,*,#260,.T.);
#208=ORIENTED_EDGE('',*,*,#273,.T.);
#209=CARTESIAN_POINT('',(5.24816371153588,0.0,0.0));
#210=DIRECTION('',(1.0,0.0,0.0));
#211=DIRECTION('',(0.0,1.0,0.0));
#212=ORIENTED_EDGE('',*,*,#255,.T.);
#213=ORIENTED_EDGE('',*,*,#275,.F.);
#214=ORIENTED_EDGE('',*,*,#257,.T.);
#215=ORIENTED_EDGE('',*,*,#274,.T.);
#216=CARTESIAN_POINT('',(11.4981637115359,0.0,0.0));
#217=DIRECTION('',(-1.0,-0.0,-0.0));
#218=DIRECTION('',(0.0,1.0,0.0));
#219=ORIENTED_EDGE('',*,*,#251,.T.);
#220=ORIENTED_EDGE('',*,*,#276,.F.);
#221=ORIENTED_EDGE('',*,*,#253,.T.);
#222=ORIENTED_EDGE('',*,*,#275,.T.);
#223=CARTESIAN_POINT('',(34.25,0.0,0.0));
#224=DIRECTION('',(1.0,0.0,0.0));
#225=DIRECTION('',(0.0,1.0,0.0));
#226=ORIENTED_EDGE('',*,*,#248,.F.);
#227=ORIENTED_EDGE('',*,*,#277,.F.);
#228=ORIENTED_EDGE('',*,*,#254,.T.);
#229=ORIENTED_EDGE('',*,*,#276,.T.);
#230=CARTESIAN_POINT('',(55.0,36.8,0.0));
#231=DIRECTION('',(1.0,0.0,0.0));
#232=DIRECTION('',(0.0,1.0,0.0));
#233=ORIENTED_EDGE('',*,*,#247,.T.);
#234=ORIENTED_EDGE('',*,*,#278,.F.);
#235=ORIENTED_EDGE('',*,*,#249,.T.);
#236=ORIENTED_EDGE('',*,*,#277,.T.);
#237=CARTESIAN_POINT('',(55.5,0.0,0.0));
#238=DIRECTION('',(1.0,0.0,0.0));
#239=DIRECTION('',(0.0,1.0,0.0));
#240=ORIENTED_EDGE('',*,*,#266,.T.);
#241=ORIENTED_EDGE('',*,*,#270,.T.);
#242=ORIENTED_EDGE('',*,*,#250,.T.);
#243=ORIENTED_EDGE('',*,*,#278,.T.);
#244=CARTESIAN_POINT('',(56.0,14.3,0.0));
#245=DIRECTION('',(1.0,0.0,0.0));
#246=DIRECTION('',(0.0,1.0,0.0));
#247=EDGE_CURVE('',#279,#280,#281,.T.);
#248=EDGE_CURVE('',#279,#282,#283,.T.);
#249=EDGE_CURVE('',#284,#282,#285,.T.);
#250=EDGE_CURVE('',#280,#284,#286,.T.);
#251=EDGE_CURVE('',#287,#288,#289,.T.);
#252=EDGE_CURVE('',#287,#290,#291,.T.);
#253=EDGE_CURVE('',#292,#290,#293,.T.);
#254=EDGE_CURVE('',#288,#292,#294,.T.);
#255=EDGE_CURVE('',#295,#287,#296,.T.);
#256=EDGE_CURVE('',#295,#297,#298,.T.);
#257=EDGE_CURVE('',#290,#297,#299,.T.);
#258=EDGE_CURVE('',#300,#295,#301,.T.);
#259=EDGE_CURVE('',#300,#302,#303,.T.);
#260=EDGE_CURVE('',#297,#302,#304,.T.);
#261=EDGE_CURVE('',#305,#306,#307,.T.);
#262=EDGE_CURVE('',#305,#308,#309,.T.);
#263=EDGE_CURVE('',#310,#308,#311,.T.);
#264=EDGE_CURVE('',#306,#310,#312,.T.);
#265=EDGE_CURVE('',#313,#314,#315,.T.);
#266=EDGE_CURVE('',#316,#313,#317,.T.);
#267=EDGE_CURVE('',#318,#316,#319,.T.);
#268=EDGE_CURVE('',#314,#318,#320,.T.);
#269=EDGE_CURVE('',#318,#314,#321,.T.);
#270=EDGE_CURVE('',#313,#316,#322,.T.);
#271=EDGE_CURVE('',#308,#305,#323,.T.);
#272=EDGE_CURVE('',#310,#306,#324,.T.);
#273=EDGE_CURVE('',#302,#300,#325,.T.);
#274=EDGE_CURVE('',#297,#295,#326,.T.);
#275=EDGE_CURVE('',#290,#287,#327,.T.);
#276=EDGE_CURVE('',#292,#288,#328,.T.);
#277=EDGE_CURVE('',#282,#279,#329,.T.);
#278=EDGE_CURVE('',#284,#280,#330,.T.);
#279=VERTEX_POINT('',#331);
#280=VERTEX_POINT('',#332);
#281=LINE('',#333,#334);
#282=VERTEX_POINT('',#335);
#283=CIRCLE('',#336,28.6);
#284=VERTEX_POINT('',#337);
#285=LINE('',#338,#339);
#286=CIRCLE('',#340,28.6);
#287=VERTEX_POINT('',#341);
#288=VERTEX_POINT('',#342);
#289=LINE('',#343,#344);
#290=VERTEX_POINT('',#345);
#291=CIRCLE('',#346,45.0);
#292=VERTEX_POINT('',#347);
#293=LINE('',#348,#349);
#294=CIRCLE('',#350,45.0);
#295=VERTEX_POINT('',#351);
#296=LINE('',#352,#353);
#297=VERTEX_POINT('',#354);
#298=CIRCLE('',#355,56.0);
#299=LINE('',#356,#357);
#300=VERTEX_POINT('',#358);
#301=LINE('',#359,#360);
#302=VERTEX_POINT('',#361);
#303=CIRCLE('',#362,56.0);
#304=LINE('',#363,#364);
#305=VERTEX_POINT('',#365);
#306=VERTEX_POINT('',#366);
#307=LINE('',#367,#368);
#308=VERTEX_POINT('',#369);
#309=CIRCLE('',#370,28.6);
#310=VERTEX_POINT('',#371);
#311=LINE('',#372,#373);
#312=CIRCLE('',#374,28.6);
#313=VERTEX_POINT('',#375);
#314=VERTEX_POINT('',#376);
#315=LINE('',#377,#378);
#316=VERTEX_POINT('',#379);
#317=CIRCLE('',#380,15.0);
#318=VERTEX_POINT('',#381);
#319=LINE('',#382,#383);
#320=CIRCLE('',#384,15.0);
#321=CIRCLE('',#385,15.0);
#322=CIRCLE('',#386,15.0);
#323=CIRCLE('',#387,28.6);
#324=CIRCLE('',#388,28.6);
#325=CIRCLE('',#389,56.0);
#326=CIRCLE('',#390,56.0);
#327=CIRCLE('',#391,45.0);
#328=CIRCLE('',#392,45.0);
#329=CIRCLE('',#393,28.6);
#330=CIRCLE('',#394,28.6);
#331=CARTESIAN_POINT('',(55.0,28.6,0.0));
#332=CARTESIAN_POINT('',(56.0,28.6,0.0));
#333=CARTESIAN_POINT('',(55.5,28.6,-3.502374171932E-015));
#334=VECTOR('',#395,1.0);
#335=CARTESIAN_POINT('',(55.0,-28.6,3.502374171932E-015));
#336=AXIS2_PLACEMENT_3D('',#396,#397,#398);
#337=CARTESIAN_POINT('',(56.0,-28.6,3.502374171932E-015));
#338=CARTESIAN_POINT('',(55.5,-28.6,3.502374171932E-015));
#339=VECTOR('',#399,1.0);
#340=AXIS2_PLACEMENT_3D('',#400,#401,#402);
#341=CARTESIAN_POINT('',(13.5,45.0,0.0));
#342=CARTESIAN_POINT('',(55.0,45.0,0.0));
#343=CARTESIAN_POINT('',(34.25,45.0,-5.5107285922007E-015));
#344=VECTOR('',#403,1.0);
#345=CARTESIAN_POINT('',(13.5,-45.0,5.5107285922007E-015));
#346=AXIS2_PLACEMENT_3D('',#404,#405,#406);
#347=CARTESIAN_POINT('',(55.0,-45.0,5.5107285922007E-015));
#348=CARTESIAN_POINT('',(34.25,-45.0,5.5107285922007E-015));
#349=VECTOR('',#407,1.0);
#350=AXIS2_PLACEMENT_3D('',#408,#409,#410);
#351=CARTESIAN_POINT('',(9.49632742307177,56.0,0.0));
#352=CARTESIAN_POINT('',(11.4981637115359,50.5,-6.184262086803E-015));
#353=VECTOR('',#411,1.0);
#354=CARTESIAN_POINT('',(9.49632742307177,-56.0,6.85779558140531E-015));
#355=AXIS2_PLACEMENT_3D('',#412,#413,#414);
#356=CARTESIAN_POINT('',(11.4981637115359,-50.5,6.184262086803E-015));
#357=VECTOR('',#415,1.0);
#358=CARTESIAN_POINT('',(1.0,56.0,0.0));
#359=CARTESIAN_POINT('',(5.24816371153588,56.0,-6.85779558140531E-015));
#360=VECTOR('',#416,1.0);
#361=CARTESIAN_POINT('',(1.0,-56.0,6.85779558140531E-015));
#362=AXIS2_PLACEMENT_3D('',#417,#418,#419);
#363=CARTESIAN_POINT('',(5.24816371153588,-56.0,6.85779558140531E-015));
#364=VECTOR('',#420,1.0);
#365=CARTESIAN_POINT('',(1.751187085966E-015,28.6,0.0));
#366=CARTESIAN_POINT('',(1.0,28.6,0.0));
#367=CARTESIAN_POINT('',(0.5,28.6,-3.502374171932E-015));
#368=VECTOR('',#421,1.0);
#369=CARTESIAN_POINT('',(0.0,-28.6,3.502374171932E-015));
#370=AXIS2_PLACEMENT_3D('',#422,#423,#424);
#371=CARTESIAN_POINT('',(1.0,-28.6,3.502374171932E-015));
#372=CARTESIAN_POINT('',(0.5,-28.6,3.502374171932E-015));
#373=VECTOR('',#425,1.0);
#374=AXIS2_PLACEMENT_3D('',#426,#427,#428);
#375=CARTESIAN_POINT('',(56.0,-1.83690953073357E-015,-15.0));
#376=CARTESIAN_POINT('',(-1.64962679400435E-031,-1.83690953073357E-015,-15.0));
#377=CARTESIAN_POINT('',(28.0,-1.83690953073357E-015,-15.0));
#378=VECTOR('',#429,1.0);
#379=CARTESIAN_POINT('',(56.0,1.83690953073357E-015,15.0));
#380=AXIS2_PLACEMENT_3D('',#430,#431,#432);
#381=CARTESIAN_POINT('',(-1.1247455413666E-031,-1.83690953073357E-015,15.0));
#382=CARTESIAN_POINT('',(28.0,1.83690953073357E-015,15.0));
#383=VECTOR('',#433,1.0);
#384=AXIS2_PLACEMENT_3D('',#434,#435,#436);
#385=AXIS2_PLACEMENT_3D('',#437,#438,#439);
#386=AXIS2_PLACEMENT_3D('',#440,#441,#442);
#387=AXIS2_PLACEMENT_3D('',#443,#444,#445);
#388=AXIS2_PLACEMENT_3D('',#446,#447,#448);
#389=AXIS2_PLACEMENT_3D('',#449,#450,#451);
#390=AXIS2_PLACEMENT_3D('',#452,#453,#454);
#391=AXIS2_PLACEMENT_3D('',#455,#456,#457);
#392=AXIS2_PLACEMENT_3D('',#458,#459,#460);
#393=AXIS2_PLACEMENT_3D('',#461,#462,#463);
#394=AXIS2_PLACEMENT_3D('',#464,#465,#466);
#395=DIRECTION('',(1.0,0.0,0.0));
#396=CARTESIAN_POINT('',(55.0,0.0,0.0));
#397=DIRECTION('',(1.0,0.0,0.0));
#398=DIRECTION('',(0.0,1.0,0.0));
#399=DIRECTION('',(-1.0,-0.0,-0.0));
#400=CARTESIAN_POINT('',(56.0,0.0,0.0));
#401=DIRECTION('',(1.0,0.0,0.0));
#402=DIRECTION('',(0.0,1.0,0.0));
#403=DIRECTION('',(1.0,0.0,0.0));
#404=CARTESIAN_POINT('',(13.5,0.0,0.0));
#405=DIRECTION('',(1.0,0.0,0.0));
#406=DIRECTION('',(0.0,1.0,0.0));
#407=DIRECTION('',(-1.0,-0.0,-0.0));
#408=CARTESIAN_POINT('',(55.0,0.0,0.0));
#409=DIRECTION('',(1.0,0.0,0.0));
#410=DIRECTION('',(0.0,1.0,0.0));
#411=DIRECTION('',(0.342020143325669,-0.939692620785908,1.15075355405442E-016));
#412=CARTESIAN_POINT('',(9.49632742307177,0.0,0.0));
#413=DIRECTION('',(1.0,0.0,0.0));
#414=DIRECTION('',(0.0,1.0,0.0));
#415=DIRECTION('',(-0.342020143325669,-0.939692620785908,1.15075355405442E-016));
#416=DIRECTION('',(1.0,0.0,0.0));
#417=CARTESIAN_POINT('',(1.0,0.0,0.0));
#418=DIRECTION('',(1.0,0.0,0.0));
#419=DIRECTION('',(0.0,1.0,0.0));
#420=DIRECTION('',(-1.0,-0.0,-0.0));
#421=DIRECTION('',(1.0,0.0,0.0));
#422=CARTESIAN_POINT('',(0.0,0.0,0.0));
#423=DIRECTION('',(1.0,0.0,0.0));
#424=DIRECTION('',(0.0,1.0,0.0));
#425=DIRECTION('',(-1.0,-0.0,-0.0));
#426=CARTESIAN_POINT('',(1.0,0.0,0.0));
#427=DIRECTION('',(1.0,0.0,0.0));
#428=DIRECTION('',(0.0,1.0,0.0));
#429=DIRECTION('',(-1.0,0.0,0.0));
#430=CARTESIAN_POINT('',(56.0,0.0,0.0));
#431=DIRECTION('',(-1.0,-0.0,-0.0));
#432=DIRECTION('',(0.0,0.0,-1.0));
#433=DIRECTION('',(1.0,0.0,0.0));
#434=CARTESIAN_POINT('',(0.0,0.0,0.0));
#435=DIRECTION('',(1.0,-6.12303176911189E-017,0.0));
#436=DIRECTION('',(0.0,0.0,-1.0));
#437=CARTESIAN_POINT('',(0.0,0.0,0.0));
#438=DIRECTION('',(1.0,-6.12303176911189E-017,0.0));
#439=DIRECTION('',(0.0,0.0,-1.0));
#440=CARTESIAN_POINT('',(56.0,0.0,0.0));
#441=DIRECTION('',(-1.0,-0.0,-0.0));
#442=DIRECTION('',(0.0,0.0,-1.0));
#443=CARTESIAN_POINT('',(0.0,0.0,0.0));
#444=DIRECTION('',(1.0,0.0,0.0));
#445=DIRECTION('',(0.0,1.0,0.0));
#446=CARTESIAN_POINT('',(1.0,0.0,0.0));
#447=DIRECTION('',(1.0,0.0,0.0));
#448=DIRECTION('',(0.0,1.0,0.0));
#449=CARTESIAN_POINT('',(1.0,0.0,0.0));
#450=DIRECTION('',(1.0,0.0,0.0));
#451=DIRECTION('',(0.0,1.0,0.0));
#452=CARTESIAN_POINT('',(9.49632742307177,0.0,0.0));
#453=DIRECTION('',(1.0,0.0,0.0));
#454=DIRECTION('',(0.0,1.0,0.0));
#455=CARTESIAN_POINT('',(13.5,0.0,0.0));
#456=DIRECTION('',(1.0,0.0,0.0));
#457=DIRECTION('',(0.0,1.0,0.0));
#458=CARTESIAN_POINT('',(55.0,0.0,0.0));
#459=DIRECTION('',(1.0,0.0,0.0));
#460=DIRECTION('',(0.0,1.0,0.0));
#461=CARTESIAN_POINT('',(55.0,0.0,0.0));
#462=DIRECTION('',(1.0,0.0,0.0));
#463=DIRECTION('',(0.0,1.0,0.0));
#464=CARTESIAN_POINT('',(56.0,0.0,0.0));
#465=DIRECTION('',(1.0,0.0,0.0));
#466=DIRECTION('',(0.0,1.0,0.0));
ENDSEC;
END-ISO-10303-21;
